ВИДЕО РАЗБОРЫ

(20 Голосов)

Океан Ельзи - Відпусти


|Am      |Em      |C     |G               |C
e|-------0------------------3---------3------------0------|
B|-----1---------0--------1---------0---0--------1--------|
G|---2---------0---0----0---------0-------0----0----------|
D|--------------------------------------------------------|
A|-0--------2--------3-----------------------3------------|
E|-----------------------------3--------------------------| (4 рази)
__________________________________________________________________________
вся пісенька грається повільним перебором на таку табу:
|Am |Em |C |G |C |Em |Am |E
e|-------0------------------3---------3--------0-------0-------0-------0-|
B|-----1---------0--------1---------0--------1-------0-------1-------0---|
G|---2---------0---0----0---------0--------0-------0-------2-------1-----|
D|-----------------------------------------------------------------------|
A|-0--------2--------3------------------ 3-------2-------0-------2-------|
E|-----------------------------3-----------------------------------------|

Am                       G         C
Я важав би що ти бiлий день без дощу
E                  Am  E 
Але сльози на твому обличчi
Am                   G      C
I сказав би тобi не моя не моя
E7         E     Am
Тiльки ти не пускаеш мене


Я вважав би що ти ясна нiч без зiрок
Але ж сяють твої яснi очі
I сказав би тобі ти лиш сон тільки сон
Але ж ти не пускаєш мене

Am    G    C         G        C
В i д п у с т и  я благаю вiдпусти
E         Am  E
Бо не можу далі йти я
Am    G    C         G        C
В i д п у с т и  я благаю вiдпусти
E         Am  E
Я не хочу бiльше йти


I вважав би що ти пелюсток на веснi
Але ж ти не зiв\\\\\\\'янеш нiколи
I сказав би тобi ти моя не моя
Ла ла ла лай   ла ла ла лай  ла лай

 

Добавить комментарий

Защитный код
Обновить

Тексты всех песен принадлежат их правообладателям. Все аккорды и тексты песен взяты из открытых источников

(c) 2012 - 2016 http://gitarik.ru

Все права защищены.